ISO-10303-21;
HEADER;
FILE_DESCRIPTION (( 'STEP AP203' ),
    '1' );
FILE_NAME ('412548869_c_1.STEP',
    '2022-12-05T05:05:04',
    ( '' ),
    ( '' ),
    'SwSTEP 2.0',
    'SolidWorks 2014',
    '' );
FILE_SCHEMA (( 'CONFIG_CONTROL_DESIGN' ));
ENDSEC;

DATA;
#1 = MECHANICAL_CONTEXT ( 'NONE', #51, 'mechanical' ) ;
#2 = EDGE_CURVE ( 'NONE', #325, #64, #205, .T. ) ;
#3 = APPROVAL_STATUS ( 'not_yet_approved' ) ;
#4 = CARTESIAN_POINT ( 'NONE',  ( -40.60000000000000100, -86.00000000000000000, -7.105427357601000300E-015 ) ) ;
#5 = VECTOR ( 'NONE', #163, 1000.000000000000000 ) ;
#6 = FACE_OUTER_BOUND ( 'NONE', #354, .T. ) ;
#7 = DIRECTION ( 'NONE',  ( 0.0000000000000000000, 0.0000000000000000000, 1.000000000000000000 ) ) ;
#8 = CARTESIAN_POINT ( 'NONE',  ( 44.00000000000000000, -2.694222958124170100E-015, 86.00000000000000000 ) ) ;
#9 = DIRECTION ( 'NONE',  ( 0.0000000000000000000, -0.0000000000000000000, -1.000000000000000000 ) ) ;
#10 = VECTOR ( 'NONE', #266, 1000.000000000000000 ) ;
#11 = ORIENTED_EDGE ( 'NONE', *, *, #261, .F. ) ;
#12 = DATE_AND_TIME ( #17, #82 ) ;
#13 = ORIENTED_EDGE ( 'NONE', *, *, #19, .T. ) ;
#14 = EDGE_CURVE ( 'NONE', #325, #180, #351, .T. ) ;
#15 = FACE_OUTER_BOUND ( 'NONE', #334, .T. ) ;
#16 = ORIENTED_EDGE ( 'NONE', *, *, #244, .T. ) ;
#17 = CALENDAR_DATE ( 2022, 4, 12 ) ;
#18 = LINE ( 'NONE', #31, #331 ) ;
#19 = EDGE_CURVE ( 'NONE', #78, #96, #49, .T. ) ;
#20 = ADVANCED_FACE ( 'NONE', ( #15 ), #197, .T. ) ;
#21 = CARTESIAN_POINT ( 'NONE',  ( -44.00000000000000000, 1.347111479062085100E-015, 90.00000000000000000 ) ) ;
#22 = CARTESIAN_POINT ( 'NONE',  ( -44.00000000000001400, -86.00000000000000000, -7.105427357601000300E-015 ) ) ;
#23 = EDGE_LOOP ( 'NONE', ( #193, #92, #246, #292, #363, #115, #283, #324 ) ) ;
#24 = CARTESIAN_POINT ( 'NONE',  ( -2.447336682084690000E-030, 0.0000000000000000000, 90.00000000000000000 ) ) ;
#25 = EDGE_CURVE ( 'NONE', #180, #151, #262, .T. ) ;
#26 = DIRECTION ( 'NONE',  ( -1.000000000000000000, 6.123233995736752500E-017, -6.123233995736752500E-017 ) ) ;
#27 = CARTESIAN_POINT ( 'NONE',  ( -44.00000000000001400, -90.00000000000000000, 14.36896090312999700 ) ) ;
#28 = VERTEX_POINT ( 'NONE', #8 ) ;
#29 = APPROVAL_ROLE ( '' ) ;
#30 = DIRECTION ( 'NONE',  ( -1.224646799147350000E-016, -1.000000000000000000, 0.0000000000000000000 ) ) ;
#31 = CARTESIAN_POINT ( 'NONE',  ( -1.102182119232620000E-014, -90.00000000000000000, 14.36896090313000200 ) ) ;
#32 = COORDINATED_UNIVERSAL_TIME_OFFSET ( 8, 0, .BEHIND. ) ;
#33 = LINE ( 'NONE', #335, #60 ) ;
#34 = CARTESIAN_POINT ( 'NONE',  ( -44.00000000000000000, 1.347111479062085100E-015, 86.00000000000000000 ) ) ;
#35 = EDGE_CURVE ( 'NONE', #96, #285, #346, .T. ) ;
#36 = LINE ( 'NONE', #310, #323 ) ;
#37 = LINE ( 'NONE', #192, #42 ) ;
#38 = AXIS2_PLACEMENT_3D ( 'NONE', #339, #188, #343 ) ;
#39 = ADVANCED_FACE ( 'NONE', ( #287 ), #252, .F. ) ;
#40 = EDGE_CURVE ( 'NONE', #264, #96, #191, .T. ) ;
#41 = DATE_AND_TIME ( #183, #121 ) ;
#42 = VECTOR ( 'NONE', #7, 1000.000000000000000 ) ;
#43 = ORIENTED_EDGE ( 'NONE', *, *, #268, .T. ) ;
#44 = DIRECTION ( 'NONE',  ( 1.000000000000000000, -1.224646799147350000E-016, 0.0000000000000000000 ) ) ;
#45 = PLANE ( 'NONE',  #213 ) ;
#46 = DIRECTION ( 'NONE',  ( -0.0000000000000000000, 0.0000000000000000000, 1.000000000000000000 ) ) ;
#47 = PRODUCT ( '412548869_c_1', '412548869_c_1', '', ( #1 ) ) ;
#48 = APPLICATION_CONTEXT ( 'configuration controlled 3d designs of mechanical parts and assemblies' ) ;
#49 = LINE ( 'NONE', #190, #104 ) ;
#50 = ORIENTED_EDGE ( 'NONE', *, *, #70, .T. ) ;
#51 = APPLICATION_CONTEXT ( 'configuration controlled 3d designs of mechanical parts and assemblies' ) ;
#52 = PERSON_AND_ORGANIZATION_ROLE ( 'creator' ) ;
#53 = DIRECTION ( 'NONE',  ( 1.000000000000000000, -1.224646799147350000E-016, 0.0000000000000000000 ) ) ;
#54 = APPROVAL_DATE_TIME ( #41, #120 ) ;
#55 = COORDINATED_UNIVERSAL_TIME_OFFSET ( 8, 0, .BEHIND. ) ;
#56 = PERSON_AND_ORGANIZATION_ROLE ( 'creator' ) ;
#57 = VERTEX_POINT ( 'NONE', #171 ) ;
#58 = CC_DESIGN_SECURITY_CLASSIFICATION ( #357, ( #352 ) ) ;
#59 = CARTESIAN_POINT ( 'NONE',  ( 44.00000000000001400, -47.23473298326010200, 47.23473298326000200 ) ) ;
#60 = VECTOR ( 'NONE', #326, 1000.000000000000000 ) ;
#61 = ORIENTED_EDGE ( 'NONE', *, *, #117, .F. ) ;
#62 = AXIS2_PLACEMENT_3D ( 'NONE', #86, #226, #348 ) ;
#63 = PERSON_AND_ORGANIZATION ( #157, #103 ) ;
#64 = VERTEX_POINT ( 'NONE', #34 ) ;
#65 = ADVANCED_FACE ( 'NONE', ( #6 ), #248, .T. ) ;
#66 = ORIENTED_EDGE ( 'NONE', *, *, #145, .T. ) ;
#67 = ADVANCED_FACE ( 'NONE', ( #258 ), #225, .F. ) ;
#68 = CC_DESIGN_PERSON_AND_ORGANIZATION_ASSIGNMENT ( #146, #138, ( #47 ) ) ;
#69 = DATE_AND_TIME ( #356, #149 ) ;
#70 = EDGE_CURVE ( 'NONE', #28, #180, #185, .T. ) ;
#71 = EDGE_LOOP ( 'NONE', ( #234, #317, #359, #118 ) ) ;
#72 = CARTESIAN_POINT ( 'NONE',  ( 44.00000000000000000, -85.99999999999964500, 8.469465966522642800 ) ) ;
#73 = DIRECTION ( 'NONE',  ( -8.659560562354914400E-017, -0.7071067811865475700, 0.7071067811865475700 ) ) ;
#74 = CARTESIAN_POINT ( 'NONE',  ( -44.00000000000000000, 0.0000000000000000000, 86.00000000000000000 ) ) ;
#75 = VECTOR ( 'NONE', #44, 1000.000000000000000 ) ;
#76 = DIRECTION ( 'NONE',  ( -1.000000000000000000, 0.0000000000000000000, -0.0000000000000000000 ) ) ;
#77 = AXIS2_PLACEMENT_3D ( 'NONE', #182, #155, #76 ) ;
#78 = VERTEX_POINT ( 'NONE', #174 ) ;
#79 = CARTESIAN_POINT ( 'NONE',  ( 44.00000000000000000, -90.00000000000000000, 14.36896090313000200 ) ) ;
#80 = DIRECTION ( 'NONE',  ( 0.0000000000000000000, 0.7071067811865474600, 0.7071067811865474600 ) ) ;
#81 = SECURITY_CLASSIFICATION_LEVEL ( 'unclassified' ) ;
#82 = LOCAL_TIME ( 21, 5, 4.000000000000000000, #260 ) ;
#83 = VECTOR ( 'NONE', #361, 1000.000000000000000 ) ;
#84 = CARTESIAN_POINT ( 'NONE',  ( -44.00000000000000000, -86.00000000000000000, -7.105427357601000300E-015 ) ) ;
#85 =( GEOMETRIC_REPRESENTATION_CONTEXT ( 3 ) GLOBAL_UNCERTAINTY_ASSIGNED_CONTEXT ( ( #142 ) ) GLOBAL_UNIT_ASSIGNED_CONTEXT ( ( #218, #216, #170 ) ) REPRESENTATION_CONTEXT ( 'NONE', 'WORKASPACE' ) );
#86 = CARTESIAN_POINT ( 'NONE',  ( -40.60000000000000100, 0.0000000000000000000, 86.00000000000000000 ) ) ;
#87 = VECTOR ( 'NONE', #26, 1000.000000000000000 ) ;
#88 = VECTOR ( 'NONE', #337, 1000.000000000000000 ) ;
#89 = ORIENTED_EDGE ( 'NONE', *, *, #202, .F. ) ;
#90 = AXIS2_PLACEMENT_3D ( 'NONE', #4, #30, #222 ) ;
#91 = LINE ( 'NONE', #224, #5 ) ;
#92 = ORIENTED_EDGE ( 'NONE', *, *, #327, .F. ) ;
#93 = EDGE_CURVE ( 'NONE', #285, #57, #135, .T. ) ;
#94 = COORDINATED_UNIVERSAL_TIME_OFFSET ( 8, 0, .BEHIND. ) ;
#95 = CARTESIAN_POINT ( 'NONE',  ( 44.00000000000000000, 0.0000000000000000000, 86.00000000000000000 ) ) ;
#96 = VERTEX_POINT ( 'NONE', #132 ) ;
#97 = ORIENTED_EDGE ( 'NONE', *, *, #126, .F. ) ;
#98 = DATE_AND_TIME ( #362, #139 ) ;
#99 = DIRECTION ( 'NONE',  ( -1.000000000000000000, 1.224646799147350000E-016, -0.0000000000000000000 ) ) ;
#100 = ADVANCED_FACE ( 'NONE', ( #251 ), #45, .F. ) ;
#101 = PRODUCT_DEFINITION ( 'UNKNOWN', '', #352, #349 ) ;
#102 = CARTESIAN_POINT ( 'NONE',  ( 44.00000000000000000, -1.347111479062085100E-015, 90.00000000000000000 ) ) ;
#103 = ORGANIZATION ( 'UNSPECIFIED', 'UNSPECIFIED', '' ) ;
#104 = VECTOR ( 'NONE', #245, 1000.000000000000000 ) ;
#105 = EDGE_LOOP ( 'NONE', ( #168, #353, #16, #61 ) ) ;
#106 = CARTESIAN_POINT ( 'NONE',  ( -1.102182119232620000E-014, -14.36896090313004300, 89.99999999999995700 ) ) ;
#107 = VECTOR ( 'NONE', #80, 1000.000000000000100 ) ;
#108 = AXIS2_PLACEMENT_3D ( 'NONE', #133, #73, #299 ) ;
#109 = ORIENTED_EDGE ( 'NONE', *, *, #14, .F. ) ;
#110 = ORIENTED_EDGE ( 'NONE', *, *, #2, .T. ) ;
#111 = DIRECTION ( 'NONE',  ( 1.000000000000000000, 0.0000000000000000000, 0.0000000000000000000 ) ) ;
#112 = CARTESIAN_POINT ( 'NONE',  ( -44.00000000000000000, 0.0000000000000000000, -7.105427357601000300E-015 ) ) ;
#113 = VECTOR ( 'NONE', #160, 1000.000000000000000 ) ;
#114 = FACE_OUTER_BOUND ( 'NONE', #181, .T. ) ;
#115 = ORIENTED_EDGE ( 'NONE', *, *, #189, .F. ) ;
#116 = DIRECTION ( 'NONE',  ( -1.224646799147350000E-016, -1.000000000000000000, 0.0000000000000000000 ) ) ;
#117 = EDGE_CURVE ( 'NONE', #151, #124, #210, .T. ) ;
#118 = ORIENTED_EDGE ( 'NONE', *, *, #145, .F. ) ;
#119 = EDGE_LOOP ( 'NONE', ( #229, #11, #319, #66 ) ) ;
#120 = APPROVAL ( #307, 'UNSPECIFIED' ) ;
#121 = LOCAL_TIME ( 21, 5, 4.000000000000000000, #55 ) ;
#122 = ORIENTED_EDGE ( 'NONE', *, *, #25, .T. ) ;
#123 = VERTEX_POINT ( 'NONE', #333 ) ;
#124 = VERTEX_POINT ( 'NONE', #215 ) ;
#125 = ORIENTED_EDGE ( 'NONE', *, *, #268, .F. ) ;
#126 = EDGE_CURVE ( 'NONE', #123, #236, #33, .T. ) ;
#127 = DIRECTION ( 'NONE',  ( 1.297493460879835600E-016, 0.7071067811865470200, 0.7071067811865480200 ) ) ;
#128 = CARTESIAN_POINT ( 'NONE',  ( 44.00000000000000700, -86.00000000000001400, -7.105427357601000300E-015 ) ) ;
#129 = LINE ( 'NONE', #329, #315 ) ;
#130 = ORIENTED_EDGE ( 'NONE', *, *, #166, .T. ) ;
#131 = DIRECTION ( 'NONE',  ( -0.0000000000000000000, 0.0000000000000000000, 1.000000000000000000 ) ) ;
#132 = CARTESIAN_POINT ( 'NONE',  ( -44.00000000000000000, -90.00000000000000000, -7.105427357601000300E-015 ) ) ;
#133 = CARTESIAN_POINT ( 'NONE',  ( -1.102182119232620000E-014, -90.00000000000000000, 14.36896090313000200 ) ) ;
#134 = EDGE_CURVE ( 'NONE', #369, #123, #178, .T. ) ;
#135 = LINE ( 'NONE', #328, #75 ) ;
#136 = CLOSED_SHELL ( 'NONE', ( #238, #293, #39, #265, #65, #67, #152, #20, #207, #100 ) ) ;
#137 = PERSON_AND_ORGANIZATION_ROLE ( 'design_supplier' ) ;
#138 = PERSON_AND_ORGANIZATION_ROLE ( 'design_owner' ) ;
#139 = LOCAL_TIME ( 21, 5, 4.000000000000000000, #94 ) ;
#140 = DIRECTION ( 'NONE',  ( -1.224646799147350000E-016, -1.000000000000000000, 0.0000000000000000000 ) ) ;
#141 = VECTOR ( 'NONE', #187, 1000.000000000000000 ) ;
#142 = UNCERTAINTY_MEASURE_WITH_UNIT (LENGTH_MEASURE( 1.000000000000000100E-005 ), #218, 'distance_accuracy_value', 'NONE');
#143 = VECTOR ( 'NONE', #127, 1000.000000000000000 ) ;
#144 = EDGE_CURVE ( 'NONE', #64, #28, #291, .T. ) ;
#145 = EDGE_CURVE ( 'NONE', #236, #154, #167, .T. ) ;
#146 = PERSON_AND_ORGANIZATION ( #157, #103 ) ;
#147 = EDGE_LOOP ( 'NONE', ( #256, #206, #148, #263 ) ) ;
#148 = ORIENTED_EDGE ( 'NONE', *, *, #189, .T. ) ;
#149 = LOCAL_TIME ( 21, 5, 4.000000000000000000, #32 ) ;
#150 = VECTOR ( 'NONE', #312, 1000.000000000000000 ) ;
#151 = VERTEX_POINT ( 'NONE', #72 ) ;
#152 = ADVANCED_FACE ( 'NONE', ( #114 ), #239, .T. ) ;
#153 = CARTESIAN_POINT ( 'NONE',  ( -2.256988331801540100E-030, 0.0000000000000000000, 90.00000000000000000 ) ) ;
#154 = VERTEX_POINT ( 'NONE', #21 ) ;
#155 = DIRECTION ( 'NONE',  ( 0.0000000000000000000, 0.0000000000000000000, -1.000000000000000000 ) ) ;
#156 = AXIS2_PLACEMENT_3D ( 'NONE', #169, #247, #111 ) ;
#157 = PERSON ( 'UNSPECIFIED', 'UNSPECIFIED', 'UNSPECIFIED', ('UNSPECIFIED'), ('UNSPECIFIED'), ('UNSPECIFIED') ) ;
#158 = LINE ( 'NONE', #106, #87 ) ;
#159 = ORIENTED_EDGE ( 'NONE', *, *, #40, .T. ) ;
#160 = DIRECTION ( 'NONE',  ( -1.224646799147350000E-016, -1.000000000000000000, -0.0000000000000000000 ) ) ;
#161 = ORIENTED_EDGE ( 'NONE', *, *, #25, .F. ) ;
#162 = EDGE_CURVE ( 'NONE', #154, #212, #220, .T. ) ;
#163 = DIRECTION ( 'NONE',  ( -0.0000000000000000000, 0.0000000000000000000, 1.000000000000000000 ) ) ;
#164 = DATE_TIME_ROLE ( 'classification_date' ) ;
#165 = APPROVAL_DATE_TIME ( #309, #231 ) ;
#166 = EDGE_CURVE ( 'NONE', #57, #151, #232, .T. ) ;
#167 = LINE ( 'NONE', #153, #255 ) ;
#168 = ORIENTED_EDGE ( 'NONE', *, *, #166, .F. ) ;
#169 = CARTESIAN_POINT ( 'NONE',  ( 0.0000000000000000000, 0.0000000000000000000, 0.0000000000000000000 ) ) ;
#170 =( NAMED_UNIT ( * ) SI_UNIT ( $, .STERADIAN. ) SOLID_ANGLE_UNIT ( ) );
#171 = CARTESIAN_POINT ( 'NONE',  ( 44.00000000000000000, -86.00000000000001400, -7.105427357601000300E-015 ) ) ;
#172 = APPROVAL_PERSON_ORGANIZATION ( #303, #322, #194 ) ;
#173 = EDGE_LOOP ( 'NONE', ( #130, #161, #259, #89, #97, #332, #125, #300 ) ) ;
#174 = CARTESIAN_POINT ( 'NONE',  ( 44.00000000000000000, -90.00000000000000000, -7.105427357601000300E-015 ) ) ;
#175 = CC_DESIGN_PERSON_AND_ORGANIZATION_ASSIGNMENT ( #272, #340, ( #357 ) ) ;
#176 = ORIENTED_EDGE ( 'NONE', *, *, #327, .T. ) ;
#177 = CC_DESIGN_PERSON_AND_ORGANIZATION_ASSIGNMENT ( #240, #56, ( #101 ) ) ;
#178 = LINE ( 'NONE', #284, #143 ) ;
#179 = LINE ( 'NONE', #308, #107 ) ;
#180 = VERTEX_POINT ( 'NONE', #267 ) ;
#181 = EDGE_LOOP ( 'NONE', ( #367, #201, #13, #223 ) ) ;
#182 = CARTESIAN_POINT ( 'NONE',  ( -1.016456843292300000E-014, -83.00000000000000000, -7.105427357601000300E-015 ) ) ;
#183 = CALENDAR_DATE ( 2022, 4, 12 ) ;
#184 = CARTESIAN_POINT ( 'NONE',  ( -44.00000000000000000, 0.0000000000000000000, 90.00000000000000000 ) ) ;
#185 = LINE ( 'NONE', #95, #10 ) ;
#186 = DIRECTION ( 'NONE',  ( 0.0000000000000000000, 0.7071067811865474600, 0.7071067811865474600 ) ) ;
#187 = DIRECTION ( 'NONE',  ( -1.000000000000000000, 6.123233995736752500E-017, -6.123233995736752500E-017 ) ) ;
#188 = DIRECTION ( 'NONE',  ( 1.000000000000000000, -1.224646799147350000E-016, 0.0000000000000000000 ) ) ;
#189 = EDGE_CURVE ( 'NONE', #212, #264, #204, .T. ) ;
#190 = CARTESIAN_POINT ( 'NONE',  ( -1.016456843292300000E-014, -90.00000000000000000, -7.105427357601000300E-015 ) ) ;
#191 = LINE ( 'NONE', #250, #228 ) ;
#192 = CARTESIAN_POINT ( 'NONE',  ( 43.99999999999998600, -90.00000000000000000, -7.105427357601000300E-015 ) ) ;
#193 = ORIENTED_EDGE ( 'NONE', *, *, #2, .F. ) ;
#194 = APPROVAL_ROLE ( '' ) ;
#195 = DATE_TIME_ROLE ( 'creation_date' ) ;
#196 = APPLICATION_PROTOCOL_DEFINITION ( 'international standard', 'config_control_design', 1994, #48 ) ;
#197 = PLANE ( 'NONE',  #289 ) ;
#198 = LINE ( 'NONE', #22, #345 ) ;
#199 = ORIENTED_EDGE ( 'NONE', *, *, #117, .T. ) ;
#200 = DIRECTION ( 'NONE',  ( -1.224646799147350000E-016, -1.000000000000000000, 0.0000000000000000000 ) ) ;
#201 = ORIENTED_EDGE ( 'NONE', *, *, #360, .T. ) ;
#202 = EDGE_CURVE ( 'NONE', #236, #28, #129, .T. ) ;
#203 = LOCAL_TIME ( 21, 5, 4.000000000000000000, #282 ) ;
#204 = LINE ( 'NONE', #270, #209 ) ;
#205 = LINE ( 'NONE', #74, #279 ) ;
#206 = ORIENTED_EDGE ( 'NONE', *, *, #261, .T. ) ;
#207 = ADVANCED_FACE ( 'NONE', ( #341 ), #208, .T. ) ;
#208 = PLANE ( 'NONE',  #108 ) ;
#209 = VECTOR ( 'NONE', #214, 1000.000000000000100 ) ;
#210 = LINE ( 'NONE', #280, #141 ) ;
#211 = DIRECTION ( 'NONE',  ( -1.000000000000000000, 0.0000000000000000000, -0.0000000000000000000 ) ) ;
#212 = VERTEX_POINT ( 'NONE', #301 ) ;
#213 = AXIS2_PLACEMENT_3D ( 'NONE', #24, #237, #211 ) ;
#214 = DIRECTION ( 'NONE',  ( -1.297493460879833100E-016, -0.7071067811865483500, -0.7071067811865465700 ) ) ;
#215 = CARTESIAN_POINT ( 'NONE',  ( -44.00000000000000700, -85.99999999999964500, 8.469465966522635700 ) ) ;
#216 =( NAMED_UNIT ( * ) PLANE_ANGLE_UNIT ( ) SI_UNIT ( $, .RADIAN. ) );
#217 = DIRECTION ( 'NONE',  ( -1.000000000000000000, 1.224646799147350000E-016, -0.0000000000000000000 ) ) ;
#218 =( LENGTH_UNIT ( ) NAMED_UNIT ( * ) SI_UNIT ( .MILLI., .METRE. ) );
#219 = PERSON_AND_ORGANIZATION ( #157, #103 ) ;
#220 = LINE ( 'NONE', #184, #113 ) ;
#221 = ORIENTED_EDGE ( 'NONE', *, *, #14, .T. ) ;
#222 = DIRECTION ( 'NONE',  ( 1.000000000000000000, -1.224646799147350000E-016, 0.0000000000000000000 ) ) ;
#223 = ORIENTED_EDGE ( 'NONE', *, *, #35, .T. ) ;
#224 = CARTESIAN_POINT ( 'NONE',  ( -44.00000000000000000, 0.0000000000000000000, -7.105427357601000300E-015 ) ) ;
#225 = PLANE ( 'NONE',  #276 ) ;
#226 = DIRECTION ( 'NONE',  ( 0.0000000000000000000, 0.0000000000000000000, -1.000000000000000000 ) ) ;
#227 = VECTOR ( 'NONE', #46, 1000.000000000000000 ) ;
#228 = VECTOR ( 'NONE', #9, 1000.000000000000000 ) ;
#229 = ORIENTED_EDGE ( 'NONE', *, *, #162, .T. ) ;
#230 = CARTESIAN_POINT ( 'NONE',  ( -1.102182119232620000E-014, -90.00000000000000000, -7.105427357601000300E-015 ) ) ;
#231 = APPROVAL ( #275, 'UNSPECIFIED' ) ;
#232 = LINE ( 'NONE', #128, #227 ) ;
#233 = FACE_OUTER_BOUND ( 'NONE', #23, .T. ) ;
#234 = ORIENTED_EDGE ( 'NONE', *, *, #202, .T. ) ;
#235 = FACE_OUTER_BOUND ( 'NONE', #253, .T. ) ;
#236 = VERTEX_POINT ( 'NONE', #102 ) ;
#237 = DIRECTION ( 'NONE',  ( 0.0000000000000000000, 0.0000000000000000000, -1.000000000000000000 ) ) ;
#238 = ADVANCED_FACE ( 'NONE', ( #235 ), #294, .T. ) ;
#239 = PLANE ( 'NONE',  #77 ) ;
#240 = PERSON_AND_ORGANIZATION ( #157, #103 ) ;
#241 = CARTESIAN_POINT ( 'NONE',  ( -40.60000000000000100, 0.0000000000000000000, 86.00000000000000000 ) ) ;
#242 = ORIENTED_EDGE ( 'NONE', *, *, #19, .F. ) ;
#243 = PLANE ( 'NONE',  #296 ) ;
#244 = EDGE_CURVE ( 'NONE', #285, #124, #198, .T. ) ;
#245 = DIRECTION ( 'NONE',  ( -1.000000000000000000, 0.0000000000000000000, -0.0000000000000000000 ) ) ;
#246 = ORIENTED_EDGE ( 'NONE', *, *, #244, .F. ) ;
#247 = DIRECTION ( 'NONE',  ( 0.0000000000000000000, 0.0000000000000000000, 1.000000000000000000 ) ) ;
#248 = PLANE ( 'NONE',  #62 ) ;
#249 = APPROVAL_ROLE ( '' ) ;
#250 = CARTESIAN_POINT ( 'NONE',  ( -44.00000000000001400, -90.00000000000000000, -7.105427357601000300E-015 ) ) ;
#251 = FACE_OUTER_BOUND ( 'NONE', #119, .T. ) ;
#252 = PLANE ( 'NONE',  #90 ) ;
#253 = EDGE_LOOP ( 'NONE', ( #199, #176, #221, #122 ) ) ;
#254 = AXIS2_PLACEMENT_3D ( 'NONE', #302, #365, #186 ) ;
#255 = VECTOR ( 'NONE', #99, 1000.000000000000000 ) ;
#256 = ORIENTED_EDGE ( 'NONE', *, *, #134, .T. ) ;
#257 = EDGE_CURVE ( 'NONE', #64, #154, #91, .T. ) ;
#258 = FACE_OUTER_BOUND ( 'NONE', #71, .T. ) ;
#259 = ORIENTED_EDGE ( 'NONE', *, *, #70, .F. ) ;
#260 = COORDINATED_UNIVERSAL_TIME_OFFSET ( 8, 0, .BEHIND. ) ;
#261 = EDGE_CURVE ( 'NONE', #123, #212, #158, .T. ) ;
#262 = LINE ( 'NONE', #59, #305 ) ;
#263 = ORIENTED_EDGE ( 'NONE', *, *, #364, .F. ) ;
#264 = VERTEX_POINT ( 'NONE', #27 ) ;
#265 = ADVANCED_FACE ( 'NONE', ( #286 ), #243, .F. ) ;
#266 = DIRECTION ( 'NONE',  ( -1.224646799147350000E-016, -1.000000000000000000, 0.0000000000000000000 ) ) ;
#267 = CARTESIAN_POINT ( 'NONE',  ( 44.00000000000000700, -8.469465966522532700, 85.99999999999965900 ) ) ;
#268 = EDGE_CURVE ( 'NONE', #78, #369, #37, .T. ) ;
#269 = DIRECTION ( 'NONE',  ( 1.224646799147350000E-016, 1.000000000000000000, 0.0000000000000000000 ) ) ;
#270 = CARTESIAN_POINT ( 'NONE',  ( -44.00000000000000000, -14.36896090312980000, 90.00000000000000000 ) ) ;
#271 = PRODUCT_DEFINITION_SHAPE ( 'NONE', 'NONE',  #101 ) ;
#272 = PERSON_AND_ORGANIZATION ( #157, #103 ) ;
#273 = APPLICATION_PROTOCOL_DEFINITION ( 'international standard', 'config_control_design', 1994, #51 ) ;
#274 = DIRECTION ( 'NONE',  ( -1.224646799147350000E-016, -1.000000000000000000, 0.0000000000000000000 ) ) ;
#275 = APPROVAL_STATUS ( 'not_yet_approved' ) ;
#276 = AXIS2_PLACEMENT_3D ( 'NONE', #281, #116, #314 ) ;
#277 = DIRECTION ( 'NONE',  ( -1.000000000000000000, 1.224646799147350000E-016, 0.0000000000000000000 ) ) ;
#278 = APPROVAL_PERSON_ORGANIZATION ( #63, #120, #249 ) ;
#279 = VECTOR ( 'NONE', #269, 1000.000000000000000 ) ;
#280 = CARTESIAN_POINT ( 'NONE',  ( -5.784586455652930100E-015, -85.99999999999856500, 8.469465966521539700 ) ) ;
#281 = CARTESIAN_POINT ( 'NONE',  ( -2.256988331801540100E-030, 0.0000000000000000000, 83.00000000000000000 ) ) ;
#282 = COORDINATED_UNIVERSAL_TIME_OFFSET ( 8, 0, .BEHIND. ) ;
#283 = ORIENTED_EDGE ( 'NONE', *, *, #162, .F. ) ;
#284 = CARTESIAN_POINT ( 'NONE',  ( 43.99999999999998600, -90.00000000000000000, 14.36896090313000200 ) ) ;
#285 = VERTEX_POINT ( 'NONE', #84 ) ;
#286 = FACE_OUTER_BOUND ( 'NONE', #173, .T. ) ;
#287 = FACE_OUTER_BOUND ( 'NONE', #105, .T. ) ;
#288 = CC_DESIGN_APPROVAL ( #120, ( #352 ) ) ;
#289 = AXIS2_PLACEMENT_3D ( 'NONE', #230, #200, #53 ) ;
#290 = APPROVAL_PERSON_ORGANIZATION ( #219, #231, #29 ) ;
#291 = LINE ( 'NONE', #241, #83 ) ;
#292 = ORIENTED_EDGE ( 'NONE', *, *, #35, .F. ) ;
#293 = ADVANCED_FACE ( 'NONE', ( #233 ), #368, .F. ) ;
#294 = PLANE ( 'NONE',  #254 ) ;
#295 = PERSON_AND_ORGANIZATION ( #157, #103 ) ;
#296 = AXIS2_PLACEMENT_3D ( 'NONE', #306, #277, #274 ) ;
#297 = MANIFOLD_SOLID_BREP ( 'Volumenk\X\F6rper1', #136 ) ;
#298 = SHAPE_DEFINITION_REPRESENTATION ( #271, #321 ) ;
#299 = DIRECTION ( 'NONE',  ( 0.0000000000000000000, -0.7071067811865474600, -0.7071067811865474600 ) ) ;
#300 = ORIENTED_EDGE ( 'NONE', *, *, #360, .F. ) ;
#301 = CARTESIAN_POINT ( 'NONE',  ( -44.00000000000000700, -14.36896090313001100, 89.99999999999998600 ) ) ;
#302 = CARTESIAN_POINT ( 'NONE',  ( -5.784586455652930100E-015, -47.23473298326010200, 47.23473298326000200 ) ) ;
#303 = PERSON_AND_ORGANIZATION ( #157, #103 ) ;
#304 = CARTESIAN_POINT ( 'NONE',  ( -5.784586455652930100E-015, -8.469465966521482900, 85.99999999999862200 ) ) ;
#305 = VECTOR ( 'NONE', #347, 1000.000000000000100 ) ;
#306 = CARTESIAN_POINT ( 'NONE',  ( 44.00000000000000000, 0.0000000000000000000, -7.105427357601000300E-015 ) ) ;
#307 = APPROVAL_STATUS ( 'not_yet_approved' ) ;
#308 = CARTESIAN_POINT ( 'NONE',  ( -44.00000000000001400, -47.23473298326010200, 47.23473298326000200 ) ) ;
#309 = DATE_AND_TIME ( #350, #203 ) ;
#310 = CARTESIAN_POINT ( 'NONE',  ( 44.00000000000000000, 0.0000000000000000000, -7.105427357601000300E-015 ) ) ;
#311 = CARTESIAN_POINT ( 'NONE',  ( -44.00000000000000000, -8.469465966522527400, 85.99999999999965900 ) ) ;
#312 = DIRECTION ( 'NONE',  ( 1.224646799147350000E-016, 1.000000000000000000, 0.0000000000000000000 ) ) ;
#313 = CC_DESIGN_PERSON_AND_ORGANIZATION_ASSIGNMENT ( #355, #52, ( #352 ) ) ;
#314 = DIRECTION ( 'NONE',  ( 1.000000000000000000, -1.224646799147350000E-016, 0.0000000000000000000 ) ) ;
#315 = VECTOR ( 'NONE', #366, 1000.000000000000000 ) ;
#316 = CC_DESIGN_APPROVAL ( #322, ( #101 ) ) ;
#317 = ORIENTED_EDGE ( 'NONE', *, *, #144, .F. ) ;
#318 = ORIENTED_EDGE ( 'NONE', *, *, #144, .T. ) ;
#319 = ORIENTED_EDGE ( 'NONE', *, *, #126, .T. ) ;
#320 = APPROVAL_DATE_TIME ( #69, #322 ) ;
#321 = ADVANCED_BREP_SHAPE_REPRESENTATION ( '412548869_c_1', ( #297, #156 ), #85 ) ;
#322 = APPROVAL ( #3, 'UNSPECIFIED' ) ;
#323 = VECTOR ( 'NONE', #140, 1000.000000000000000 ) ;
#324 = ORIENTED_EDGE ( 'NONE', *, *, #257, .F. ) ;
#325 = VERTEX_POINT ( 'NONE', #311 ) ;
#326 = DIRECTION ( 'NONE',  ( 1.224646799147350000E-016, 1.000000000000000000, -0.0000000000000000000 ) ) ;
#327 = EDGE_CURVE ( 'NONE', #124, #325, #179, .T. ) ;
#328 = CARTESIAN_POINT ( 'NONE',  ( -40.60000000000000100, -86.00000000000000000, -7.105427357601000300E-015 ) ) ;
#329 = CARTESIAN_POINT ( 'NONE',  ( 44.00000000000000000, 0.0000000000000000000, -7.105427357601000300E-015 ) ) ;
#330 = CC_DESIGN_PERSON_AND_ORGANIZATION_ASSIGNMENT ( #295, #137, ( #352 ) ) ;
#331 = VECTOR ( 'NONE', #217, 1000.000000000000000 ) ;
#332 = ORIENTED_EDGE ( 'NONE', *, *, #134, .F. ) ;
#333 = CARTESIAN_POINT ( 'NONE',  ( 44.00000000000001400, -14.36896090313007700, 89.99999999999997200 ) ) ;
#334 = EDGE_LOOP ( 'NONE', ( #342, #159, #242, #43 ) ) ;
#335 = CARTESIAN_POINT ( 'NONE',  ( 44.00000000000000000, 0.0000000000000000000, 90.00000000000000000 ) ) ;
#336 = CC_DESIGN_DATE_AND_TIME_ASSIGNMENT ( #12, #164, ( #357 ) ) ;
#337 = DIRECTION ( 'NONE',  ( 1.000000000000000000, -6.123233995736752500E-017, 6.123233995736752500E-017 ) ) ;
#338 = PRODUCT_RELATED_PRODUCT_CATEGORY ( 'detail', '', ( #47 ) ) ;
#339 = CARTESIAN_POINT ( 'NONE',  ( -44.00000000000000000, 0.0000000000000000000, -7.105427357601000300E-015 ) ) ;
#340 = PERSON_AND_ORGANIZATION_ROLE ( 'classification_officer' ) ;
#341 = FACE_OUTER_BOUND ( 'NONE', #147, .T. ) ;
#342 = ORIENTED_EDGE ( 'NONE', *, *, #364, .T. ) ;
#343 = DIRECTION ( 'NONE',  ( 1.224646799147350000E-016, 1.000000000000000000, 0.0000000000000000000 ) ) ;
#344 = CC_DESIGN_DATE_AND_TIME_ASSIGNMENT ( #98, #195, ( #101 ) ) ;
#345 = VECTOR ( 'NONE', #131, 1000.000000000000000 ) ;
#346 = LINE ( 'NONE', #112, #150 ) ;
#347 = DIRECTION ( 'NONE',  ( -0.0000000000000000000, -0.7071067811865474600, -0.7071067811865474600 ) ) ;
#348 = DIRECTION ( 'NONE',  ( -1.000000000000000000, 0.0000000000000000000, -0.0000000000000000000 ) ) ;
#349 = DESIGN_CONTEXT ( 'detailed design', #48, 'design' ) ;
#350 = CALENDAR_DATE ( 2022, 4, 12 ) ;
#351 = LINE ( 'NONE', #304, #88 ) ;
#352 = PRODUCT_DEFINITION_FORMATION_WITH_SPECIFIED_SOURCE ( 'ANY', '', #47, .NOT_KNOWN. ) ;
#353 = ORIENTED_EDGE ( 'NONE', *, *, #93, .F. ) ;
#354 = EDGE_LOOP ( 'NONE', ( #109, #110, #318, #50 ) ) ;
#355 = PERSON_AND_ORGANIZATION ( #157, #103 ) ;
#356 = CALENDAR_DATE ( 2022, 4, 12 ) ;
#357 = SECURITY_CLASSIFICATION ( '', '', #81 ) ;
#358 = CC_DESIGN_APPROVAL ( #231, ( #357 ) ) ;
#359 = ORIENTED_EDGE ( 'NONE', *, *, #257, .T. ) ;
#360 = EDGE_CURVE ( 'NONE', #57, #78, #36, .T. ) ;
#361 = DIRECTION ( 'NONE',  ( 1.000000000000000000, -0.0000000000000000000, 0.0000000000000000000 ) ) ;
#362 = CALENDAR_DATE ( 2022, 4, 12 ) ;
#363 = ORIENTED_EDGE ( 'NONE', *, *, #40, .F. ) ;
#364 = EDGE_CURVE ( 'NONE', #369, #264, #18, .T. ) ;
#365 = DIRECTION ( 'NONE',  ( 8.659560562354914400E-017, 0.7071067811865475700, -0.7071067811865475700 ) ) ;
#366 = DIRECTION ( 'NONE',  ( -0.0000000000000000000, -0.0000000000000000000, -1.000000000000000000 ) ) ;
#367 = ORIENTED_EDGE ( 'NONE', *, *, #93, .T. ) ;
#368 = PLANE ( 'NONE',  #38 ) ;
#369 = VERTEX_POINT ( 'NONE', #79 ) ;
ENDSEC;
END-ISO-10303-21;
